ISO-10303-21;
HEADER;
FILE_DESCRIPTION (( 'STEP AP214' ),
    '1' );
FILE_NAME ('GCC-411102.STEP',
    '2020-02-15T10:10:47',
    ( 'China' ),
    ( 'Microsoft' ),
    'SwSTEP 2.0',
    'SolidWorks 2018',
    '' );
FILE_SCHEMA (( 'AUTOMOTIVE_DESIGN' ));
ENDSEC;

DATA;
#1 = APPLICATION_PROTOCOL_DEFINITION ( 'draft international standard', 'automotive_design', 1998, #205 ) ;
#2 = AXIS2_PLACEMENT_3D ( 'NONE', #100, #122, #84 ) ;
#3 = DIRECTION ( 'NONE',  ( 1.000000000000000000, 0.0000000000000000000, 0.0000000000000000000 ) ) ;
#4 = APPLICATION_CONTEXT ( 'automotive_design' ) ;
#5 = VERTEX_POINT ( 'NONE', #219 ) ;
#6 = PRESENTATION_STYLE_ASSIGNMENT (( #210 ) ) ;
#7 = CARTESIAN_POINT ( 'NONE',  ( 0.0000000000000000000, 0.0000000000000000000, 2.699999999999994849 ) ) ;
#8 = CIRCLE ( 'NONE', #128, 12.69999999999999929 ) ;
#9 = EDGE_LOOP ( 'NONE', ( #42, #56, #63, #195 ) ) ;
#10 = SHAPE_DEFINITION_REPRESENTATION ( #46, #61 ) ;
#11 = CARTESIAN_POINT ( 'NONE',  ( 0.0000000000000000000, 0.0000000000000000000, 3.000000000000000000 ) ) ;
#12 = CARTESIAN_POINT ( 'NONE',  ( 0.0000000000000000000, 0.0000000000000000000, 3.000000000000000000 ) ) ;
#13 = EDGE_LOOP ( 'NONE', ( #230, #52 ) ) ;
#14 = PRESENTATION_LAYER_ASSIGNMENT (  '', '', ( #158 ) ) ;
#15 =( NAMED_UNIT ( * ) PLANE_ANGLE_UNIT ( ) SI_UNIT ( $, .RADIAN. ) );
#16 = CIRCLE ( 'NONE', #2, 12.40000000000000036 ) ;
#17 = DIRECTION ( 'NONE',  ( 0.0000000000000000000, 0.0000000000000000000, 1.000000000000000000 ) ) ;
#18 = LINE ( 'NONE', #50, #182 ) ;
#19 = ORIENTED_EDGE ( 'NONE', *, *, #190, .F. ) ;
#20 = ORIENTED_EDGE ( 'NONE', *, *, #77, .F. ) ;
#21 = EDGE_LOOP ( 'NONE', ( #228, #104, #217, #240 ) ) ;
#22 = AXIS2_PLACEMENT_3D ( 'NONE', #12, #200, #101 ) ;
#23 = ADVANCED_FACE ( 'NONE', ( #75 ), #160, .T. ) ;
#24 = EDGE_LOOP ( 'NONE', ( #187, #29, #183, #220 ) ) ;
#25 = AXIS2_PLACEMENT_3D ( 'NONE', #107, #203, #199 ) ;
#26 =( NAMED_UNIT ( * ) PLANE_ANGLE_UNIT ( ) SI_UNIT ( $, .RADIAN. ) );
#27 = CARTESIAN_POINT ( 'NONE',  ( -12.69999999999999929, 1.555301434917138433E-15, 0.2999999999999981570 ) ) ;
#28 = CIRCLE ( 'NONE', #137, 12.69999999999999929 ) ;
#29 = ORIENTED_EDGE ( 'NONE', *, *, #77, .T. ) ;
#30 = CARTESIAN_POINT ( 'NONE',  ( 12.69999999999999929, 1.555301434917138433E-15, 3.000000000000000000 ) ) ;
#31 = FILL_AREA_STYLE_COLOUR ( '', #206 ) ;
#32 = ORIENTED_EDGE ( 'NONE', *, *, #133, .T. ) ;
#33 = DIRECTION ( 'NONE',  ( -0.0000000000000000000, -0.0000000000000000000, 1.000000000000000000 ) ) ;
#34 = CARTESIAN_POINT ( 'NONE',  ( 0.0000000000000000000, 0.0000000000000000000, 0.2999999999999981570 ) ) ;
#35 = CIRCLE ( 'NONE', #130, 12.39999999999999325 ) ;
#36 = ORIENTED_EDGE ( 'NONE', *, *, #88, .F. ) ;
#37 = FACE_OUTER_BOUND ( 'NONE', #13, .T. ) ;
#38 = AXIS2_PLACEMENT_3D ( 'NONE', #71, #33, #146 ) ;
#39 = EDGE_CURVE ( 'NONE', #91, #86, #113, .T. ) ;
#40 = DIRECTION ( 'NONE',  ( 0.0000000000000000000, 0.0000000000000000000, 1.000000000000000000 ) ) ;
#41 = CONICAL_SURFACE ( 'NONE', #154, 12.69999999999999929, 0.7853981633974511656 ) ;
#42 = ORIENTED_EDGE ( 'NONE', *, *, #83, .F. ) ;
#43 = AXIS2_PLACEMENT_3D ( 'NONE', #226, #181, #109 ) ;
#44 = DIRECTION ( 'NONE',  ( 0.0000000000000000000, 0.0000000000000000000, -1.000000000000000000 ) ) ;
#45 = VERTEX_POINT ( 'NONE', #201 ) ;
#46 = PRODUCT_DEFINITION_SHAPE ( 'NONE', 'NONE',  #142 ) ;
#47 = VERTEX_POINT ( 'NONE', #57 ) ;
#48 = FILL_AREA_STYLE_COLOUR ( '', #78 ) ;
#49 = DIRECTION ( 'NONE',  ( 0.0000000000000000000, 0.0000000000000000000, -1.000000000000000000 ) ) ;
#50 = CARTESIAN_POINT ( 'NONE',  ( 12.39999999999999325, 1.518562030942716784E-15, 3.000000000000000000 ) ) ;
#51 = PRESENTATION_STYLE_ASSIGNMENT (( #123 ) ) ;
#52 = ORIENTED_EDGE ( 'NONE', *, *, #147, .T. ) ;
#53 = ADVANCED_FACE ( 'NONE', ( #60 ), #93, .T. ) ;
#54 = FILL_AREA_STYLE ('',( #31 ) ) ;
#55 = UNCERTAINTY_MEASURE_WITH_UNIT (LENGTH_MEASURE( 1.000000000000000082E-05 ), #92, 'distance_accuracy_value', 'NONE');
#56 = ORIENTED_EDGE ( 'NONE', *, *, #88, .T. ) ;
#57 = CARTESIAN_POINT ( 'NONE',  ( -12.40000000000000036, 1.536931732929928200E-15, 0.0000000000000000000 ) ) ;
#58 = EDGE_CURVE ( 'NONE', #86, #45, #99, .T. ) ;
#59 = DIRECTION ( 'NONE',  ( 1.000000000000000000, 0.0000000000000000000, 0.0000000000000000000 ) ) ;
#60 = FACE_OUTER_BOUND ( 'NONE', #153, .T. ) ;
#61 = ADVANCED_BREP_SHAPE_REPRESENTATION ( 'GCC-411102', ( #165, #43 ), #229 ) ;
#62 = EDGE_CURVE ( 'NONE', #45, #235, #8, .T. ) ;
#63 = ORIENTED_EDGE ( 'NONE', *, *, #172, .T. ) ;
#64 = ADVANCED_FACE ( 'NONE', ( #207 ), #41, .T. ) ;
#65 = CARTESIAN_POINT ( 'NONE',  ( -12.39999999999999325, 0.0000000000000000000, 3.000000000000000000 ) ) ;
#66 = DIRECTION ( 'NONE',  ( -0.0000000000000000000, -0.0000000000000000000, -1.000000000000000000 ) ) ;
#67 = PLANE ( 'NONE',  #188 ) ;
#68 = ORIENTED_EDGE ( 'NONE', *, *, #163, .F. ) ;
#69 =( NAMED_UNIT ( * ) PLANE_ANGLE_UNIT ( ) SI_UNIT ( $, .RADIAN. ) );
#70 = ORIENTED_EDGE ( 'NONE', *, *, #58, .T. ) ;
#71 = CARTESIAN_POINT ( 'NONE',  ( 0.0000000000000000000, 0.0000000000000000000, 0.2999999999999981570 ) ) ;
#72 = DIRECTION ( 'NONE',  ( -0.0000000000000000000, -0.0000000000000000000, 1.000000000000000000 ) ) ;
#73 = DIRECTION ( 'NONE',  ( 1.000000000000000000, 0.0000000000000000000, -0.0000000000000000000 ) ) ;
#74 = VECTOR ( 'NONE', #102, 1000.000000000000000 ) ;
#75 = FACE_OUTER_BOUND ( 'NONE', #232, .T. ) ;
#76 = EDGE_CURVE ( 'NONE', #161, #47, #234, .T. ) ;
#77 = EDGE_CURVE ( 'NONE', #91, #235, #18, .T. ) ;
#78 = COLOUR_RGB ( '',0.9411764705882352811, 0.9607843137254902244, 0.9686274509803921573 ) ;
#79 = EDGE_LOOP ( 'NONE', ( #68, #139, #32, #19 ) ) ;
#80 = DIRECTION ( 'NONE',  ( 0.0000000000000000000, 0.0000000000000000000, -1.000000000000000000 ) ) ;
#81 = MECHANICAL_DESIGN_GEOMETRIC_PRESENTATION_REPRESENTATION (  '', ( #237 ), #177 ) ;
#82 = SURFACE_SIDE_STYLE ('',( #152 ) ) ;
#83 = EDGE_CURVE ( 'NONE', #235, #5, #150, .T. ) ;
#84 = DIRECTION ( 'NONE',  ( 1.000000000000000000, 0.0000000000000000000, 0.0000000000000000000 ) ) ;
#85 = DIRECTION ( 'NONE',  ( -1.000000000000000000, 0.0000000000000000000, 0.0000000000000000000 ) ) ;
#86 = VERTEX_POINT ( 'NONE', #65 ) ;
#87 = CARTESIAN_POINT ( 'NONE',  ( 12.69999999999999929, 1.555301434917138433E-15, 2.699999999999994849 ) ) ;
#88 = EDGE_CURVE ( 'NONE', #235, #45, #28, .T. ) ;
#89 = ORIENTED_EDGE ( 'NONE', *, *, #39, .T. ) ;
#90 = DIRECTION ( 'NONE',  ( -0.0000000000000000000, -0.0000000000000000000, 1.000000000000000000 ) ) ;
#91 = VERTEX_POINT ( 'NONE', #170 ) ;
#92 =( LENGTH_UNIT ( ) NAMED_UNIT ( * ) SI_UNIT ( .MILLI., .METRE. ) );
#93 = CYLINDRICAL_SURFACE ( 'NONE', #180, 12.69999999999999929 ) ;
#94 = ORIENTED_EDGE ( 'NONE', *, *, #196, .T. ) ;
#95 = CARTESIAN_POINT ( 'NONE',  ( 0.0000000000000000000, 0.0000000000000000000, 0.2999999999999981570 ) ) ;
#96 = VECTOR ( 'NONE', #125, 1000.000000000000000 ) ;
#97 = ORIENTED_EDGE ( 'NONE', *, *, #62, .T. ) ;
#98 = PRODUCT_RELATED_PRODUCT_CATEGORY ( 'part', '', ( #224 ) ) ;
#99 = LINE ( 'NONE', #215, #156 ) ;
#100 = CARTESIAN_POINT ( 'NONE',  ( 0.0000000000000000000, 0.0000000000000000000, 0.0000000000000000000 ) ) ;
#101 = DIRECTION ( 'NONE',  ( -1.000000000000000000, 0.0000000000000000000, 0.0000000000000000000 ) ) ;
#102 = DIRECTION ( 'NONE',  ( -0.0000000000000000000, -0.0000000000000000000, -1.000000000000000000 ) ) ;
#103 = UNCERTAINTY_MEASURE_WITH_UNIT (LENGTH_MEASURE( 1.000000000000000082E-05 ), #129, 'distance_accuracy_value', 'NONE');
#104 = ORIENTED_EDGE ( 'NONE', *, *, #163, .T. ) ;
#105 = VERTEX_POINT ( 'NONE', #239 ) ;
#106 = DIRECTION ( 'NONE',  ( 0.7071067811865495711, 8.659560562354956277E-17, -0.7071067811865454633 ) ) ;
#107 = CARTESIAN_POINT ( 'NONE',  ( 0.0000000000000000000, 0.0000000000000000000, 0.0000000000000000000 ) ) ;
#108 = AXIS2_PLACEMENT_3D ( 'NONE', #114, #40, #59 ) ;
#109 = DIRECTION ( 'NONE',  ( 1.000000000000000000, 0.0000000000000000000, 0.0000000000000000000 ) ) ;
#110 = APPLICATION_PROTOCOL_DEFINITION ( 'draft international standard', 'automotive_design', 1998, #4 ) ;
#111 = LINE ( 'NONE', #27, #214 ) ;
#112 = PRESENTATION_LAYER_ASSIGNMENT (  '', '', ( #237 ) ) ;
#113 = CIRCLE ( 'NONE', #108, 12.39999999999999325 ) ;
#114 = CARTESIAN_POINT ( 'NONE',  ( 0.0000000000000000000, 0.0000000000000000000, 3.000000000000000000 ) ) ;
#115 = DIRECTION ( 'NONE',  ( -1.000000000000000000, 0.0000000000000000000, 0.0000000000000000000 ) ) ;
#116 = CIRCLE ( 'NONE', #119, 12.69999999999999929 ) ;
#117 = ORIENTED_EDGE ( 'NONE', *, *, #144, .F. ) ;
#118 = DIRECTION ( 'NONE',  ( -1.000000000000000000, 0.0000000000000000000, 0.0000000000000000000 ) ) ;
#119 = AXIS2_PLACEMENT_3D ( 'NONE', #208, #72, #3 ) ;
#120 = ORIENTED_EDGE ( 'NONE', *, *, #144, .T. ) ;
#121 = ADVANCED_FACE ( 'NONE', ( #168 ), #192, .T. ) ;
#122 = DIRECTION ( 'NONE',  ( -0.0000000000000000000, -0.0000000000000000000, -1.000000000000000000 ) ) ;
#123 = SURFACE_STYLE_USAGE ( .BOTH. , #82 ) ;
#124 = LINE ( 'NONE', #141, #96 ) ;
#125 = DIRECTION ( 'NONE',  ( 0.7071067811865495711, 0.0000000000000000000, 0.7071067811865454633 ) ) ;
#126 = CARTESIAN_POINT ( 'NONE',  ( 0.0000000000000000000, 0.0000000000000000000, 0.0000000000000000000 ) ) ;
#127 = PRODUCT_CONTEXT ( 'NONE', #4, 'mechanical' ) ;
#128 = AXIS2_PLACEMENT_3D ( 'NONE', #7, #131, #151 ) ;
#129 =( LENGTH_UNIT ( ) NAMED_UNIT ( * ) SI_UNIT ( .MILLI., .METRE. ) );
#130 = AXIS2_PLACEMENT_3D ( 'NONE', #159, #175, #198 ) ;
#131 = DIRECTION ( 'NONE',  ( 0.0000000000000000000, 0.0000000000000000000, -1.000000000000000000 ) ) ;
#132 = FACE_OUTER_BOUND ( 'NONE', #9, .T. ) ;
#133 = EDGE_CURVE ( 'NONE', #161, #5, #124, .T. ) ;
#134 = CLOSED_SHELL ( 'NONE', ( #121, #64, #53, #135, #138, #197, #225, #23 ) ) ;
#135 = ADVANCED_FACE ( 'NONE', ( #132 ), #211, .T. ) ;
#136 = CARTESIAN_POINT ( 'NONE',  ( 0.0000000000000000000, 0.0000000000000000000, 3.000000000000000000 ) ) ;
#137 = AXIS2_PLACEMENT_3D ( 'NONE', #176, #80, #157 ) ;
#138 = ADVANCED_FACE ( 'NONE', ( #193 ), #238, .T. ) ;
#139 = ORIENTED_EDGE ( 'NONE', *, *, #76, .F. ) ;
#140 = DIRECTION ( 'NONE',  ( 0.0000000000000000000, 0.0000000000000000000, 1.000000000000000000 ) ) ;
#141 = CARTESIAN_POINT ( 'NONE',  ( 12.69999999999999929, 0.0000000000000000000, 0.2999999999999981570 ) ) ;
#142 = PRODUCT_DEFINITION ( 'Î´Öª', '', #204, #148 ) ;
#143 =( NAMED_UNIT ( * ) SI_UNIT ( $, .STERADIAN. ) SOLID_ANGLE_UNIT ( ) );
#144 = EDGE_CURVE ( 'NONE', #86, #91, #35, .T. ) ;
#145 =( NAMED_UNIT ( * ) SI_UNIT ( $, .STERADIAN. ) SOLID_ANGLE_UNIT ( ) );
#146 = DIRECTION ( 'NONE',  ( 1.000000000000000000, 0.0000000000000000000, 0.0000000000000000000 ) ) ;
#147 = EDGE_CURVE ( 'NONE', #47, #161, #16, .T. ) ;
#148 = PRODUCT_DEFINITION_CONTEXT ( 'detailed design', #205, 'design' ) ;
#149 = DIRECTION ( 'NONE',  ( -0.0000000000000000000, -0.0000000000000000000, 1.000000000000000000 ) ) ;
#150 = LINE ( 'NONE', #30, #216 ) ;
#151 = DIRECTION ( 'NONE',  ( 1.000000000000000000, 0.0000000000000000000, 0.0000000000000000000 ) ) ;
#152 = SURFACE_STYLE_FILL_AREA ( #202 ) ;
#153 = EDGE_LOOP ( 'NONE', ( #97, #218, #94, #212 ) ) ;
#154 = AXIS2_PLACEMENT_3D ( 'NONE', #95, #149, #231 ) ;
#155 = FACE_OUTER_BOUND ( 'NONE', #79, .T. ) ;
#156 = VECTOR ( 'NONE', #191, 1000.000000000000000 ) ;
#157 = DIRECTION ( 'NONE',  ( 1.000000000000000000, 0.0000000000000000000, 0.0000000000000000000 ) ) ;
#158 = STYLED_ITEM ( 'NONE', ( #51 ), #165 ) ;
#159 = CARTESIAN_POINT ( 'NONE',  ( 0.0000000000000000000, 0.0000000000000000000, 3.000000000000000000 ) ) ;
#160 = CONICAL_SURFACE ( 'NONE', #186, 12.39999999999999325, 0.7853981633974511656 ) ;
#161 = VERTEX_POINT ( 'NONE', #236 ) ;
#162 = CARTESIAN_POINT ( 'NONE',  ( 0.0000000000000000000, 0.0000000000000000000, 3.000000000000000000 ) ) ;
#163 = EDGE_CURVE ( 'NONE', #47, #105, #111, .T. ) ;
#164 = DIRECTION ( 'NONE',  ( 1.000000000000000000, 0.0000000000000000000, -0.0000000000000000000 ) ) ;
#165 = MANIFOLD_SOLID_BREP ( 'µ¹½Ç1', #134 ) ;
#166 = DIRECTION ( 'NONE',  ( 1.000000000000000000, 0.0000000000000000000, 0.0000000000000000000 ) ) ;
#167 = CONICAL_SURFACE ( 'NONE', #38, 12.69999999999999929, 0.7853981633974511656 ) ;
#168 = FACE_OUTER_BOUND ( 'NONE', #24, .T. ) ;
#169 = EDGE_LOOP ( 'NONE', ( #120, #89 ) ) ;
#170 = CARTESIAN_POINT ( 'NONE',  ( 12.39999999999999325, 1.536931732929927411E-15, 3.000000000000000000 ) ) ;
#171 = CARTESIAN_POINT ( 'NONE',  ( 0.0000000000000000000, 0.0000000000000000000, 3.000000000000000000 ) ) ;
#172 = EDGE_CURVE ( 'NONE', #45, #105, #179, .T. ) ;
#173 = MECHANICAL_DESIGN_GEOMETRIC_PRESENTATION_REPRESENTATION (  '', ( #158 ), #185 ) ;
#174 = UNCERTAINTY_MEASURE_WITH_UNIT (LENGTH_MEASURE( 1.000000000000000082E-05 ), #221, 'distance_accuracy_value', 'NONE');
#175 = DIRECTION ( 'NONE',  ( 0.0000000000000000000, 0.0000000000000000000, 1.000000000000000000 ) ) ;
#176 = CARTESIAN_POINT ( 'NONE',  ( 0.0000000000000000000, 0.0000000000000000000, 2.699999999999994849 ) ) ;
#177 =( GEOMETRIC_REPRESENTATION_CONTEXT ( 3 ) GLOBAL_UNCERTAINTY_ASSIGNED_CONTEXT ( ( #55 ) ) GLOBAL_UNIT_ASSIGNED_CONTEXT ( ( #92, #69, #227 ) ) REPRESENTATION_CONTEXT ( 'NONE', 'WORKASPACE' ) );
#178 = CARTESIAN_POINT ( 'NONE',  ( -12.69999999999999929, 0.0000000000000000000, 3.000000000000000000 ) ) ;
#179 = LINE ( 'NONE', #178, #74 ) ;
#180 = AXIS2_PLACEMENT_3D ( 'NONE', #171, #189, #115 ) ;
#181 = DIRECTION ( 'NONE',  ( 0.0000000000000000000, 0.0000000000000000000, 1.000000000000000000 ) ) ;
#182 = VECTOR ( 'NONE', #106, 1000.000000000000000 ) ;
#183 = ORIENTED_EDGE ( 'NONE', *, *, #62, .F. ) ;
#184 = SURFACE_SIDE_STYLE ('',( #233 ) ) ;
#185 =( GEOMETRIC_REPRESENTATION_CONTEXT ( 3 ) GLOBAL_UNCERTAINTY_ASSIGNED_CONTEXT ( ( #174 ) ) GLOBAL_UNIT_ASSIGNED_CONTEXT ( ( #221, #26, #143 ) ) REPRESENTATION_CONTEXT ( 'NONE', 'WORKASPACE' ) );
#186 = AXIS2_PLACEMENT_3D ( 'NONE', #136, #44, #118 ) ;
#187 = ORIENTED_EDGE ( 'NONE', *, *, #39, .F. ) ;
#188 = AXIS2_PLACEMENT_3D ( 'NONE', #126, #17, #73 ) ;
#189 = DIRECTION ( 'NONE',  ( -0.0000000000000000000, -0.0000000000000000000, -1.000000000000000000 ) ) ;
#190 = EDGE_CURVE ( 'NONE', #105, #5, #116, .T. ) ;
#191 = DIRECTION ( 'NONE',  ( -0.7071067811865495711, 0.0000000000000000000, -0.7071067811865454633 ) ) ;
#192 = CONICAL_SURFACE ( 'NONE', #209, 12.39999999999999325, 0.7853981633974511656 ) ;
#193 = FACE_OUTER_BOUND ( 'NONE', #169, .T. ) ;
#194 = AXIS2_PLACEMENT_3D ( 'NONE', #162, #140, #164 ) ;
#195 = ORIENTED_EDGE ( 'NONE', *, *, #190, .T. ) ;
#196 = EDGE_CURVE ( 'NONE', #5, #105, #223, .T. ) ;
#197 = ADVANCED_FACE ( 'NONE', ( #37 ), #67, .F. ) ;
#198 = DIRECTION ( 'NONE',  ( 1.000000000000000000, 0.0000000000000000000, 0.0000000000000000000 ) ) ;
#199 = DIRECTION ( 'NONE',  ( 1.000000000000000000, 0.0000000000000000000, 0.0000000000000000000 ) ) ;
#200 = DIRECTION ( 'NONE',  ( -0.0000000000000000000, -0.0000000000000000000, -1.000000000000000000 ) ) ;
#201 = CARTESIAN_POINT ( 'NONE',  ( -12.69999999999999929, 0.0000000000000000000, 2.699999999999994849 ) ) ;
#202 = FILL_AREA_STYLE ('',( #48 ) ) ;
#203 = DIRECTION ( 'NONE',  ( -0.0000000000000000000, -0.0000000000000000000, -1.000000000000000000 ) ) ;
#204 = PRODUCT_DEFINITION_FORMATION_WITH_SPECIFIED_SOURCE ( 'ÈÎºÎ', '', #224, .NOT_KNOWN. ) ;
#205 = APPLICATION_CONTEXT ( 'automotive_design' ) ;
#206 = COLOUR_RGB ( '',0.9411764705882352811, 0.9607843137254902244, 0.9686274509803921573 ) ;
#207 = FACE_OUTER_BOUND ( 'NONE', #21, .T. ) ;
#208 = CARTESIAN_POINT ( 'NONE',  ( 0.0000000000000000000, 0.0000000000000000000, 0.2999999999999981570 ) ) ;
#209 = AXIS2_PLACEMENT_3D ( 'NONE', #11, #49, #85 ) ;
#210 = SURFACE_STYLE_USAGE ( .BOTH. , #184 ) ;
#211 = CYLINDRICAL_SURFACE ( 'NONE', #22, 12.69999999999999929 ) ;
#212 = ORIENTED_EDGE ( 'NONE', *, *, #172, .F. ) ;
#213 = AXIS2_PLACEMENT_3D ( 'NONE', #34, #90, #166 ) ;
#214 = VECTOR ( 'NONE', #222, 1000.000000000000000 ) ;
#215 = CARTESIAN_POINT ( 'NONE',  ( -12.39999999999999325, 0.0000000000000000000, 3.000000000000000000 ) ) ;
#216 = VECTOR ( 'NONE', #66, 1000.000000000000000 ) ;
#217 = ORIENTED_EDGE ( 'NONE', *, *, #196, .F. ) ;
#218 = ORIENTED_EDGE ( 'NONE', *, *, #83, .T. ) ;
#219 = CARTESIAN_POINT ( 'NONE',  ( 12.69999999999999929, 1.555301434917138433E-15, 0.2999999999999981570 ) ) ;
#220 = ORIENTED_EDGE ( 'NONE', *, *, #58, .F. ) ;
#221 =( LENGTH_UNIT ( ) NAMED_UNIT ( * ) SI_UNIT ( .MILLI., .METRE. ) );
#222 = DIRECTION ( 'NONE',  ( -0.7071067811865495711, 8.659560562354957510E-17, 0.7071067811865454633 ) ) ;
#223 = CIRCLE ( 'NONE', #213, 12.69999999999999929 ) ;
#224 = PRODUCT ( 'GCC-411102', 'GCC-411102', '', ( #127 ) ) ;
#225 = ADVANCED_FACE ( 'NONE', ( #155 ), #167, .T. ) ;
#226 = CARTESIAN_POINT ( 'NONE',  ( 0.0000000000000000000, 0.0000000000000000000, 0.0000000000000000000 ) ) ;
#227 =( NAMED_UNIT ( * ) SI_UNIT ( $, .STERADIAN. ) SOLID_ANGLE_UNIT ( ) );
#228 = ORIENTED_EDGE ( 'NONE', *, *, #147, .F. ) ;
#229 =( GEOMETRIC_REPRESENTATION_CONTEXT ( 3 ) GLOBAL_UNCERTAINTY_ASSIGNED_CONTEXT ( ( #103 ) ) GLOBAL_UNIT_ASSIGNED_CONTEXT ( ( #129, #15, #145 ) ) REPRESENTATION_CONTEXT ( 'NONE', 'WORKASPACE' ) );
#230 = ORIENTED_EDGE ( 'NONE', *, *, #76, .T. ) ;
#231 = DIRECTION ( 'NONE',  ( 1.000000000000000000, 0.0000000000000000000, 0.0000000000000000000 ) ) ;
#232 = EDGE_LOOP ( 'NONE', ( #20, #117, #70, #36 ) ) ;
#233 = SURFACE_STYLE_FILL_AREA ( #54 ) ;
#234 = CIRCLE ( 'NONE', #25, 12.40000000000000036 ) ;
#235 = VERTEX_POINT ( 'NONE', #87 ) ;
#236 = CARTESIAN_POINT ( 'NONE',  ( 12.40000000000000036, 0.0000000000000000000, 0.0000000000000000000 ) ) ;
#237 = STYLED_ITEM ( 'NONE', ( #6 ), #61 ) ;
#238 = PLANE ( 'NONE',  #194 ) ;
#239 = CARTESIAN_POINT ( 'NONE',  ( -12.69999999999999929, 0.0000000000000000000, 0.2999999999999981570 ) ) ;
#240 = ORIENTED_EDGE ( 'NONE', *, *, #133, .F. ) ;
ENDSEC;
END-ISO-10303-21;
